Le Forum Francophone du Priest
 
AccueilFAQRechercherS'enregistrerMembresGroupesConnexion

Partagez | 
 

 Vos tabs

Aller en bas 
AuteurMessage
*-Dave-*
Steeler
avatar

Nombre de messages : 5274
Age : 25
Localisation : In The Enchented Land
Date d'inscription : 19/07/2007

MessageSujet: Vos tabs   Mar 22 Avr 2008 - 0:53

Ici vous poster vos tabs

Je commence avec nostradamus,je l'ai sorti a l'oreil ce soir...c'est pas parfait mais sa fait très bien la job Wink

Judas Priest-Nostradamus


Intro Piano
----------------------------------------------------------------------
-----------------------------------------------------------------
---9-7-9-10-----7-9-7-5-----5-7-5-4----4------2-----------
-------------------------------------------------5----------------
-----------------------------------------------------------------
-------------------------------------------------------------------






----------------------------------------- A
-----------------------------------------
-----------------------------------------
----5-/-7------7------7-----5--5--4--5-----
----5-/-7------7------7-----3--3--2--3-----
----3-/-5-5-5-5-5-5-5---------------- répéter plein de fois au debut...c'est pas le tabs exact sa sort de ma tete et mes oreille


Repeter A (écouter la chanson vous avez tout pour le debut )
----------------------------------------- B
-----------------------------------------
-----------------------------------------
----5-/-7------7------7-----5--5----7---7--
----5-/-7------7------7-----3--3----5---5--
----3-/-5-5-5-5-5-5-5----------------

---------------------------------------------------------
---------------------------------------------------------
--------------------------------------------------------- Avec des Harmonics bien sur...
----7-----5------7-------5------7/8-------5--7------------
------0-0---0-0-- -0-0 ---0-0----------0----------------
---------------------------------------------------------


Ensuite...

----------------------------------------------------------
---------------------------------------------------------
---------------------------------------------------------- a repeteplusieurs fois....en suite on retombe avec (nostradamus...)
-----------------------------------------------------------
--7--5--7--5----7/8--5------------------------------------
--5--3--5--3----5/6--3--------------------------------------

-----------------------------------------------------------
-----------------------------------------------------------
----------------------------------------------------------- ca avec harmonics toujours
----7-----5------7-------5------7/8-------5--7------------
------0-0---0-0-- -0-0 ---0-0----------0----------------
------------------------------------------------------

----------------------------------------------------
------------------------------------------------------
---------------9-----------7-------------9-----------------
----------------------------------------------7----9------10--- pas exact mais sa fait le travail
----------7-------------7-----------7-----------------------
--0---7---------0--7-------0---7---------0-0-----0-----0-----------



-----------------------------------------------------------
----------------------------------------------------------
---9-7-9-10------------------5--7--5--4------------------------------- refrain(nostradamus)
----------------7--9--7--5-------------------------------------
----------------5--7--5--3-------------------------------------
--------------------------------------------0--3---5----------


-------------------------------------------------------------
------------------------------------------------------------
------------------------------------------------------------- Juste apres le refrain
------------------------------------------------------------
--7--5--7---7--8--7----7--5--7-------7/-8/-7---------------------------------
--5--3--5---5--6--5----5--3--5--5-5-5-/6-/5-----------------------------------

apres c'est le bridge et le solo,mais sa se complique un peu la

j'espere que sa vas servir a quelqu'un....
j'attend vos commentaire...elle est facile en plus

P.S...au debut a la place de jouer l'acord de ''la'' de cette maniere:
------------------
-------------
---7-----------
---7----------
---5------------
--------------------

Je vous conseil de faire:

-----------------
-----------------
--2-------------
--2--------------
--0----------------
------------------


Dernière édition par Dave le Mar 22 Avr 2008 - 17:00, édité 2 fois
Revenir en haut Aller en bas
Voir le profil de l'utilisateur
Maxou
Steeler
avatar

Nombre de messages : 5350
Age : 25
Localisation : Hearst (Canada)
Date d'inscription : 18/03/2007

MessageSujet: Re: Vos tabs   Mar 22 Avr 2008 - 12:55

POurquoi la deplacer et ou d'apres moi elle est OK Ici!!!!!
Revenir en haut Aller en bas
Voir le profil de l'utilisateur
*-Dave-*
Steeler
avatar

Nombre de messages : 5274
Age : 25
Localisation : In The Enchented Land
Date d'inscription : 19/07/2007

MessageSujet: Re: Vos tabs   Mar 22 Avr 2008 - 16:43

elle était dans au dela du priest...un autre modo s'en est charger Wink
Revenir en haut Aller en bas
Voir le profil de l'utilisateur
iron31
Painkiller
avatar

Nombre de messages : 4608
Age : 52
Localisation : Stadium de Toulouse
Date d'inscription : 05/09/2006

MessageSujet: Re: Vos tabs   Mar 22 Avr 2008 - 16:46

Merci du taf Dave, je l'essaie de suite!!!!
Revenir en haut Aller en bas
Voir le profil de l'utilisateur
*-Dave-*
Steeler
avatar

Nombre de messages : 5274
Age : 25
Localisation : In The Enchented Land
Date d'inscription : 19/07/2007

MessageSujet: Re: Vos tabs   Mar 22 Avr 2008 - 20:11

j'attend tes commentaires Iron Wink
Revenir en haut Aller en bas
Voir le profil de l'utilisateur
Alex Guitargod
ADMIN - THE SINNER
avatar

Nombre de messages : 13625
Age : 31
Localisation : Liège (Belgique)
Date d'inscription : 08/11/2006

MessageSujet: Re: Vos tabs   Mar 22 Avr 2008 - 20:26

Moi j'essayerai demain, mais les harmonique je n'arrive pas à bien les faires... Faudra bien que je me casse le cul pour y arriver !

_________________
Revenir en haut Aller en bas
Voir le profil de l'utilisateur http://guitargod.skyblog.com
\m/MAX.K\m/
Jack The Knife (The Ripper)
avatar

Nombre de messages : 1077
Age : 21
Localisation : Liège
Date d'inscription : 08/06/2009

MessageSujet: Re: Vos tabs   Mer 17 Fév 2010 - 18:22

Alex Guitargod a écrit:
Moi j'essayerai demain, mais les harmonique je n'arrive pas à bien les faires... Faudra bien que je me casse le cul pour y arriver !


Haha Smile la technique que j'arrive le mieux a faire maintenant Very Happy

Et pour ne pas flooder je mettrai ma tab de ... si c'est seulement du priest je vous mettrai celle de leather rebel, si c'est tout groupes confondus je me ferai un plaisir de vous envoyer seek and destroy de metallica Very Happy
Revenir en haut Aller en bas
Voir le profil de l'utilisateur
*-Dave-*
Steeler
avatar

Nombre de messages : 5274
Age : 25
Localisation : In The Enchented Land
Date d'inscription : 19/07/2007

MessageSujet: Re: Vos tabs   Mer 17 Fév 2010 - 21:08

tout groupe confondus Wink

les hamoniques c'est ce qui a de plus compliquer a faire Razz
Revenir en haut Aller en bas
Voir le profil de l'utilisateur
\m/MAX.K\m/
Jack The Knife (The Ripper)
avatar

Nombre de messages : 1077
Age : 21
Localisation : Liège
Date d'inscription : 08/06/2009

MessageSujet: Re: Vos tabs   Mer 17 Fév 2010 - 23:10

*-Dave-* a écrit:
tout groupe confondus Wink

les hamoniques c'est ce qui a de plus compliquer a faire Razz



Bas sa dépend une harmonique en 7 n'as presuqe rien de dur mais une harmonique sur la corde la plus aigue et en 20 alors las bon courrage Very Happy
Revenir en haut Aller en bas
Voir le profil de l'utilisateur
*-Dave-*
Steeler
avatar

Nombre de messages : 5274
Age : 25
Localisation : In The Enchented Land
Date d'inscription : 19/07/2007

MessageSujet: Re: Vos tabs   Mer 17 Fév 2010 - 23:15

ouais mais bon,c'est pas par un manque de technique qu,on ne peut pas faire d'harmonique sur cette corde et sur cette casse,c'ets tout simplement pcq c'est impossible Razz
Revenir en haut Aller en bas
Voir le profil de l'utilisateur
\m/MAX.K\m/
Jack The Knife (The Ripper)
avatar

Nombre de messages : 1077
Age : 21
Localisation : Liège
Date d'inscription : 08/06/2009

MessageSujet: Re: Vos tabs   Mer 17 Fév 2010 - 23:17

AH..... Merde alors XD !
Revenir en haut Aller en bas
Voir le profil de l'utilisateur
\m/MAX.K\m/
Jack The Knife (The Ripper)
avatar

Nombre de messages : 1077
Age : 21
Localisation : Liège
Date d'inscription : 08/06/2009

MessageSujet: Re: Vos tabs   Dim 21 Fév 2010 - 16:00

Et mais atta Zakk Wylde il fais comment lui alors ?
Revenir en haut Aller en bas
Voir le profil de l'utilisateur
Priam
Monster of Rock
avatar

Nombre de messages : 305
Age : 27
Localisation : 92
Date d'inscription : 01/06/2009

MessageSujet: Re: Vos tabs   Dim 21 Fév 2010 - 16:17

\m/MAX.K\m/ a écrit:
Et mais atta Zakk Wylde il fais comment lui alors ?

Zakk Wylde je sais pas, mais Dimebag à deux techniques :
1/ Le floyd, en gros il va chercher les harmoniques naturelles (exemple 5eme case de ta corde de ré), et avec son floyd les fait monter une octave au dessus.
/2 La whammy, une pédale d'effet qui à un octaver (comme son nom l'indique monte ou descend à l'octave la ou les notes que tu joues), ce qui permet de faire des notes très aigues.
Il arrive parfois (même souvent) que dimebag se servent du floyd et de la whammy en même temps, pour le rendu légendaire qu'on lui connait

Sache aussi une chose : les harmoniques naturelles sont de plus en plus aigues à force que tu te rapproches des premières cases, à l'inverse des harmoniques artificielles.

(Dave dit moi si me trompe sur le langage technique ^^)
Revenir en haut Aller en bas
Voir le profil de l'utilisateur
\m/MAX.K\m/
Jack The Knife (The Ripper)
avatar

Nombre de messages : 1077
Age : 21
Localisation : Liège
Date d'inscription : 08/06/2009

MessageSujet: Re: Vos tabs   Dim 21 Fév 2010 - 16:27

Ah merci pour ton aide Priam !
Revenir en haut Aller en bas
Voir le profil de l'utilisateur
BDC Iron
Hellrider
avatar

Nombre de messages : 4213
Age : 37
Localisation : Soligny-la-Trappe (61)
Date d'inscription : 07/02/2010

MessageSujet: Re: Vos tabs   Dim 21 Fév 2010 - 20:10

Zack ne fait que des harmoniques artificielles.
Revenir en haut Aller en bas
Voir le profil de l'utilisateur http://www.roudoudou.com/iron/
\m/MAX.K\m/
Jack The Knife (The Ripper)
avatar

Nombre de messages : 1077
Age : 21
Localisation : Liège
Date d'inscription : 08/06/2009

MessageSujet: Re: Vos tabs   Dim 21 Fév 2010 - 20:55

Wai mais selon Dave se n'est pas possible sur la dernier corde, encore moin case 20 ?
Revenir en haut Aller en bas
Voir le profil de l'utilisateur
Contenu sponsorisé




MessageSujet: Re: Vos tabs   

Revenir en haut Aller en bas
 
Vos tabs
Revenir en haut 
Page 1 sur 1
 Sujets similaires
-
» Des tabs de blues
» recherche tabs de jeff lang
» Chris Whitley tabs ??
» tabs de kjp
» guitar tabs

Permission de ce forum:Vous ne pouvez pas répondre aux sujets dans ce forum
Judas Priest :: En Général :: Section pour Zicos-
Sauter vers: